  0
SECTION
  2
HEADER
  9
$ACADVER
  1
AC1014
  9
$ACADMAINTVER
 70
     9
  9
$DWGCODEPAGE
  3
ANSI_1252
  9
$INSBASE
 10
0.0
 20
0.0
 30
0.0
  9
$EXTMIN
 10
0.0
 20
0.0
 30
0.0
  9
$EXTMAX
 10
215.9
 20
279.4
 30
0.0
  9
$LIMMIN
 10
0.0
 20
0.0
  9
$LIMMAX
 10
215.9
 20
279.4
  9
$ORTHOMODE
 70
     0
  9
$REGENMODE
 70
     1
  9
$FILLMODE
 70
     1
  9
$QTEXTMODE
 70
     0
  9
$MIRRTEXT
 70
     1
  9
$DRAGMODE
 70
     2
  9
$LTSCALE
 40
1.0
  9
$OSMODE
 70
    37
  9
$ATTMODE
 70
     1
  9
$TEXTSIZE
 40
3.5
  9
$TRACEWID
 40
1.0
  9
$TEXTSTYLE
  7
STANDARD
  9
$CLAYER
  8
0
  9
$CELTYPE
  6
BYLAYER
  9
$CECOLOR
 62
   256
  9
$CELTSCALE
 40
1.0
  9
$DELOBJ
 70
     1
  9
$DISPSILH
 70
     0
  9
$DIMSCALE
 40
1.0
  9
$DIMASZ
 40
3.302
  9
$DIMEXO
 40
1.0
  9
$DIMDLI
 40
3.75
  9
$DIMRND
 40
0.0
  9
$DIMDLE
 40
0.0
  9
$DIMEXE
 40
1.0
  9
$DIMTP
 40
0.0
  9
$DIMTM
 40
0.0
  9
$DIMTXT
 40
3.5
  9
$DIMCEN
 40
2.5
  9
$DIMTSZ
 40
0.0
  9
$DIMTOL
 70
     0
  9
$DIMLIM
 70
     0
  9
$DIMTIH
 70
     1
  9
$DIMTOH
 70
     1
  9
$DIMSE1
 70
     0
  9
$DIMSE2
 70
     0
  9
$DIMTAD
 70
     1
  9
$DIMZIN
 70
     1
  9
$DIMBLK
  1

  9
$DIMASO
 70
     1
  9
$DIMSHO
 70
     1
  9
$DIMPOST
  1

  9
$DIMAPOST
  1

  9
$DIMALT
 70
     0
  9
$DIMALTD
 70
     3
  9
$DIMALTF
 40
0.0393700787
  9
$DIMLFAC
 40
1.0
  9
$DIMTOFL
 70
     1
  9
$DIMTVP
 40
0.0
  9
$DIMTIX
 70
     0
  9
$DIMSOXD
 70
     0
  9
$DIMSAH
 70
     0
  9
$DIMBLK1
  1

  9
$DIMBLK2
  1

  9
$DIMSTYLE
  2
ISO-25
  9
$DIMCLRD
 70
     0
  9
$DIMCLRE
 70
     0
  9
$DIMCLRT
 70
     0
  9
$DIMTFAC
 40
1.0
  9
$DIMGAP
 40
1.524
  9
$DIMJUST
 70
     0
  9
$DIMSD1
 70
     0
  9
$DIMSD2
 70
     0
  9
$DIMTOLJ
 70
     0
  9
$DIMTZIN
 70
     1
  9
$DIMALTZ
 70
     0
  9
$DIMALTTZ
 70
     0
  9
$DIMFIT
 70
     3
  9
$DIMUPT
 70
     0
  9
$DIMUNIT
 70
     2
  9
$DIMDEC
 70
     4
  9
$DIMTDEC
 70
     4
  9
$DIMALTU
 70
     2
  9
$DIMALTTD
 70
     3
  9
$DIMTXSTY
  7
STANDARD
  9
$DIMAUNIT
 70
     0
  9
$LUNITS
 70
     2
  9
$LUPREC
 70
     4
  9
$SKETCHINC
 40
1.0
  9
$FILLETRAD
 40
10.0
  9
$AUNITS
 70
     0
  9
$AUPREC
 70
     0
  9
$MENU
  1
.
  9
$ELEVATION
 40
0.0
  9
$PELEVATION
 40
0.0
  9
$THICKNESS
 40
0.0
  9
$LIMCHECK
 70
     0
  9
$CHAMFERA
 40
10.0
  9
$CHAMFERB
 40
10.0
  9
$CHAMFERC
 40
20.0
  9
$CHAMFERD
 40
0.0
  9
$SKPOLY
 70
     0
  9
$TDCREATE
 40
2459231.743751204
  9
$TDUPDATE
 40
2459231.74375191
  9
$TDINDWG
 40
0.0000000116
  9
$TDUSRTIMER
 40
0.0000000116
  9
$USRTIMER
 70
     1
  9
$ANGBASE
 50
0.0
  9
$ANGDIR
 70
     0
  9
$PDMODE
 70
     0
  9
$PDSIZE
 40
-1.0
  9
$PLINEWID
 40
0.0
  9
$COORDS
 70
     1
  9
$SPLFRAME
 70
     0
  9
$SPLINETYPE
 70
     6
  9
$SPLINESEGS
 70
     8
  9
$ATTDIA
 70
     0
  9
$ATTREQ
 70
     1
  9
$HANDLING
 70
     1
  9
$HANDSEED
  5
146
  9
$SURFTAB1
 70
     6
  9
$SURFTAB2
 70
     6
  9
$SURFTYPE
 70
     6
  9
$SURFU
 70
     6
  9
$SURFV
 70
     6
  9
$UCSNAME
  2

  9
$UCSORG
 10
0.0
 20
0.0
 30
0.0
  9
$UCSXDIR
 10
1.0
 20
0.0
 30
0.0
  9
$UCSYDIR
 10
0.0
 20
1.0
 30
0.0
  9
$PUCSNAME
  2

  9
$PUCSORG
 10
0.0
 20
0.0
 30
0.0
  9
$PUCSXDIR
 10
1.0
 20
0.0
 30
0.0
  9
$PUCSYDIR
 10
0.0
 20
1.0
 30
0.0
  9
$USERI1
 70
     0
  9
$USERI2
 70
     0
  9
$USERI3
 70
     0
  9
$USERI4
 70
     0
  9
$USERI5
 70
     0
  9
$USERR1
 40
0.0
  9
$USERR2
 40
0.0
  9
$USERR3
 40
0.0
  9
$USERR4
 40
0.0
  9
$USERR5
 40
0.0
  9
$WORLDVIEW
 70
     1
  9
$SHADEDGE
 70
     3
  9
$SHADEDIF
 70
    70
  9
$TILEMODE
 70
     1
  9
$MAXACTVP
 70
    64
  9
$PINSBASE
 10
0.0
 20
0.0
 30
0.0
  9
$PLIMCHECK
 70
     0
  9
$PEXTMIN
 10
1.0000000000E+20
 20
1.0000000000E+20
 30
1.0000000000E+20
  9
$PEXTMAX
 10
-1.0000000000E+20
 20
-1.0000000000E+20
 30
-1.0000000000E+20
  9
$PLIMMIN
 10
0.0
 20
0.0
  9
$PLIMMAX
 10
420.0
 20
297.0
  9
$UNITMODE
 70
     0
  9
$VISRETAIN
 70
     1
  9
$PLINEGEN
 70
     0
  9
$PSLTSCALE
 70
     1
  9
$TREEDEPTH
 70
  3020
  9
$PICKSTYLE
 70
     1
  9
$CMLSTYLE
  2
STANDARD
  9
$CMLJUST
 70
     0
  9
$CMLSCALE
 40
20.0
  9
$PROXYGRAPHICS
 70
     1
  9
$MEASUREMENT
 70
     1
  0
ENDSEC
  0
SECTION
  2
CLASSES
  0
CLASS
  1
ACDBDICTIONARYWDFLT
  2
AcDbDictionaryWithDefault
  3
ObjectDBX Classes
 90
        0
280
     0
281
     0
  0
CLASS
  1
VISUALSTYLE
  2
AcDbVisualStyle
  3
ObjectDBX Classes
 90
     4095
280
     0
281
     0
  0
CLASS
  1
MATERIAL
  2
AcDbMaterial
  3
ObjectDBX Classes
 90
     1153
280
     0
281
     0
  0
CLASS
  1
XRECORD
  2
AcDbXrecord
  3
AutoCAD 2000
 90
        0
280
     0
281
     0
  0
CLASS
  1
LWPOLYLINE
  2
AcDbPolyline
  3
AutoCAD 2000
 90
        0
280
     0
281
     1
  0
CLASS
  1
HATCH
  2
AcDbHatch
  3
AutoCAD 2000
 90
        0
280
     0
281
     1
  0
ENDSEC
  0
SECTION
  2
TABLES
  0
TABLE
  2
VPORT
  5
8
330
0
100
AcDbSymbolTable
 70
     1
  0
VPORT
  5
29
330
8
100
AcDbSymbolTableRecord
100
AcDbViewportTableRecord
  2
*ACTIVE
 70
     0
 10
0.0
 20
0.0
 11
1.0
 21
1.0
 12
107.95
 22
139.7
 13
0.0
 23
0.0
 14
10.0
 24
10.0
 15
10.0
 25
10.0
 16
0.0
 26
0.0
 36
1.0
 17
0.0
 27
0.0
 37
0.0
 40
279.4
 41
0.7727272727
 42
50.0
 43
0.0
 44
0.0
 50
0.0
 51
0.0
 71
     0
 72
  2000
 73
     1
 74
     3
 75
     0
 76
     0
 77
     0
 78
     0
  0
ENDTAB
  0
TABLE
  2
LTYPE
  5
5
330
0
100
AcDbSymbolTable
 70
     6
  0
LTYPE
  5
14
330
5
100
AcDbSymbolTableRecord
100
AcDbLinetypeTableRecord
  2
BYBLOCK
 70
     0
  3

 72
    65
 73
     0
 40
0.0
  0
LTYPE
  5
15
330
5
100
AcDbSymbolTableRecord
100
AcDbLinetypeTableRecord
  2
BYLAYER
 70
     0
  3

 72
    65
 73
     0
 40
0.0
  0
LTYPE
  5
16
330
5
100
AcDbSymbolTableRecord
100
AcDbLinetypeTableRecord
  2
CONTINUOUS
 70
     0
  3
Solid line
 72
    65
 73
     0
 40
0.0
  0
LTYPE
  5
3F
330
5
100
AcDbSymbolTableRecord
100
AcDbLinetypeTableRecord
  2
HIDDEN
 70
     0
  3
Hidden __ __ __ __ __ __ __ __ __ __ __ __ __ __
 72
    65
 73
     2
 40
1.905
 49
1.27
 74
     0
 49
-0.635
 74
     0
  0
LTYPE
  5
40
330
5
100
AcDbSymbolTableRecord
100
AcDbLinetypeTableRecord
  2
PHANTOM
 70
     0
  3
Phantom ______  __  __  ______  __  __  ______
 72
    65
 73
     6
 40
12.7
 49
6.35
 74
     0
 49
-1.27
 74
     0
 49
1.27
 74
     0
 49
-1.27
 74
     0
 49
1.27
 74
     0
 49
-1.27
 74
     0
  0
LTYPE
  5
41
330
5
100
AcDbSymbolTableRecord
100
AcDbLinetypeTableRecord
  2
CENTER
 70
     0
  3
Center ____ _ ____ _ ____ _ ____ _ ____ _ ____
 72
    65
 73
     4
 40
10.16
 49
6.35
 74
     0
 49
-1.27
 74
     0
 49
1.27
 74
     0
 49
-1.27
 74
     0
  0
LTYPE
  5
42
330
5
100
AcDbSymbolTableRecord
100
AcDbLinetypeTableRecord
  2
CENTERX2
 70
     0
  3
Center (2x) ________  __  ________  __  _____
 72
    65
 73
     4
 40
20.32
 49
12.7
 74
     0
 49
-2.54
 74
     0
 49
2.54
 74
     0
 49
-2.54
 74
     0
  0
LTYPE
  5
43
330
5
100
AcDbSymbolTableRecord
100
AcDbLinetypeTableRecord
  2
DOT2
 70
     0
  3
Dot (.5x) ........................................
 72
    65
 73
     2
 40
0.635
 49
0.0
 74
     0
 49
-0.635
 74
     0
  0
ENDTAB
  0
TABLE
  2
LAYER
  5
2
330
0
100
AcDbSymbolTable
 70
     2
  0
LAYER
  5
10
330
2
100
AcDbSymbolTableRecord
100
AcDbLayerTableRecord
  2
0
 70
     0
 62
     7
  6
CONTINUOUS
  0
LAYER
  5
44
330
2
100
AcDbSymbolTableRecord
100
AcDbLayerTableRecord
  2
SLD-0
 70
     0
 62
   179
  6
CONTINUOUS
  0
ENDTAB
  0
TABLE
  2
STYLE
  5
3
330
0
100
AcDbSymbolTable
 70
     1
  0
STYLE
  5
11
330
3
100
AcDbSymbolTableRecord
100
AcDbTextStyleTableRecord
  2
STANDARD
 70
     0
 40
0.0
 41
1.0
 50
0.0
 71
     0
 42
3.5
  3
txt
  4

  0
ENDTAB
  0
TABLE
  2
VIEW
  5
6
330
0
100
AcDbSymbolTable
 70
     0
  0
ENDTAB
  0
TABLE
  2
UCS
  5
7
330
0
100
AcDbSymbolTable
 70
     0
  0
ENDTAB
  0
TABLE
  2
APPID
  5
9
330
0
100
AcDbSymbolTable
 70
     1
  0
APPID
  5
12
330
9
100
AcDbSymbolTableRecord
100
AcDbRegAppTableRecord
  2
ACAD
 70
     0
  0
ENDTAB
  0
TABLE
  2
DIMSTYLE
  5
A
330
0
100
AcDbSymbolTable
 70
     1
  0
DIMSTYLE
105
27
330
A
100
AcDbSymbolTableRecord
100
AcDbDimStyleTableRecord
  2
ISO-25
 70
     0
  3

  4

  5

  6

  7

 40
1.0
 41
2.5
 42
0.625
 43
3.75
 44
1.25
 45
0.0
 46
0.0
 47
0.0
 48
0.0
140
2.5
141
2.5
142
0.0
143
0.0393700787
144
1.0
145
0.0
146
1.0
147
0.625
 71
     0
 72
     0
 73
     0
 74
     0
 75
     0
 76
     0
 77
     1
 78
     8
170
     0
171
     3
172
     1
173
     0
174
     0
175
     0
176
     0
177
     0
178
     0
270
     2
271
     2
272
     2
273
     2
274
     3
340
11
275
     0
280
     0
281
     0
282
     0
283
     0
284
     8
285
     0
286
     0
287
     3
288
     0
  0
ENDTAB
  0
TABLE
  2
BLOCK_RECORD
  5
1
330
0
100
AcDbSymbolTable
 70
     1
  0
BLOCK_RECORD
  5
1F
330
1
100
AcDbSymbolTableRecord
100
AcDbBlockTableRecord
  2
*MODEL_SPACE
  0
BLOCK_RECORD
  5
1B
330
1
100
AcDbSymbolTableRecord
100
AcDbBlockTableRecord
  2
*PAPER_SPACE
  0
BLOCK_RECORD
  5
23
330
1
100
AcDbSymbolTableRecord
100
AcDbBlockTableRecord
  2
*PAPER_SPACE0
  0
ENDTAB
  0
ENDSEC
  0
SECTION
  2
BLOCKS
  0
BLOCK
  5
20
330
1F
100
AcDbEntity
  8
0
100
AcDbBlockBegin
  2
*MODEL_SPACE
 70
     0
 10
0.0
 20
0.0
 30
0.0
  3
*MODEL_SPACE
  1

  0
ENDBLK
  5
21
330
1F
100
AcDbEntity
  8
0
100
AcDbBlockEnd
  0
BLOCK
  5
1C
330
1B
100
AcDbEntity
 67
     1
  8
0
100
AcDbBlockBegin
  2
*PAPER_SPACE
 70
     0
 10
0.0
 20
0.0
 30
0.0
  3
*PAPER_SPACE
  1

  0
ENDBLK
  5
1D
330
1B
100
AcDbEntity
 67
     1
  8
0
100
AcDbBlockEnd
  0
BLOCK
  5
24
330
23
100
AcDbEntity
  8
0
100
AcDbBlockBegin
  2
*PAPER_SPACE0
 70
     0
 10
0.0
 20
0.0
 30
0.0
  3
*PAPER_SPACE0
  1

  0
ENDBLK
  5
25
330
23
100
AcDbEntity
  8
0
100
AcDbBlockEnd
  0
ENDSEC
  0
SECTION
  2
ENTITIES
  0
LINE
  5
45
330
1F
100
AcDbEntity
  8
SLD-0
100
AcDbLine
 10
-965.9132095295
 20
81.4604028269
 30
0.0
 11
49034.0867904705
 21
81.4604028269
 31
0.0
  0
LINE
  5
46
330
1F
100
AcDbEntity
  8
SLD-0
  6
CONTINUOUS
 62
   179
100
AcDbLine
 10
35.473812
 20
132.8512506537
 30
0.0
 11
35.117812
 21
132.5441146537
 31
0.0
  0
LINE
  5
47
330
1F
100
AcDbEntity
  8
SLD-0
  6
CONTINUOUS
 62
   179
100
AcDbLine
 10
35.472052
 20
138.8197866537
 30
0.0
 11
35.473812
 21
132.8512506537
 31
0.0
  0
LINE
  5
48
330
1F
100
AcDbEntity
  8
SLD-0
  6
CONTINUOUS
 62
   179
100
AcDbLine
 10
35.753448
 20
139.0422556537
 30
0.0
 11
35.472052
 21
138.8197866537
 31
0.0
  0
LINE
  5
49
330
1F
100
AcDbEntity
  8
SLD-0
  6
CONTINUOUS
 62
   179
100
AcDbLine
 10
36.037243
 20
139.2615416537
 30
0.0
 11
35.753448
 21
139.0422556537
 31
0.0
  0
LINE
  5
4A
330
1F
100
AcDbEntity
  8
SLD-0
  6
CONTINUOUS
 62
   179
100
AcDbLine
 10
36.323227
 20
139.4778996537
 30
0.0
 11
36.037243
 21
139.2615416537
 31
0.0
  0
LINE
  5
4B
330
1F
100
AcDbEntity
  8
SLD-0
  6
CONTINUOUS
 62
   179
100
AcDbLine
 10
36.611189
 20
139.6915866537
 30
0.0
 11
36.323227
 21
139.4778996537
 31
0.0
  0
LINE
  5
4C
330
1F
100
AcDbEntity
  8
SLD-0
  6
CONTINUOUS
 62
   179
100
AcDbLine
 10
36.900919
 20
139.9028576537
 30
0.0
 11
36.611189
 21
139.6915866537
 31
0.0
  0
LINE
  5
4D
330
1F
100
AcDbEntity
  8
SLD-0
  6
CONTINUOUS
 62
   179
100
AcDbLine
 10
37.192207
 20
140.1119686537
 30
0.0
 11
36.900919
 21
139.9028576537
 31
0.0
  0
LINE
  5
4E
330
1F
100
AcDbEntity
  8
SLD-0
  6
CONTINUOUS
 62
   179
100
AcDbLine
 10
37.484841
 20
140.3191766537
 30
0.0
 11
37.192207
 21
140.1119686537
 31
0.0
  0
LINE
  5
4F
330
1F
100
AcDbEntity
  8
SLD-0
  6
CONTINUOUS
 62
   179
100
AcDbLine
 10
37.778612
 20
140.5247366537
 30
0.0
 11
37.484841
 21
140.3191766537
 31
0.0
  0
LINE
  5
50
330
1F
100
AcDbEntity
  8
SLD-0
  6
CONTINUOUS
 62
   179
100
AcDbLine
 10
38.36872
 20
140.9319376537
 30
0.0
 11
37.778612
 21
140.5247366537
 31
0.0
  0
LINE
  5
51
330
1F
100
AcDbEntity
  8
SLD-0
  6
CONTINUOUS
 62
   179
100
AcDbLine
 10
38.960847
 20
141.3356176537
 30
0.0
 11
38.36872
 21
140.9319376537
 31
0.0
  0
LINE
  5
52
330
1F
100
AcDbEntity
  8
SLD-0
  6
CONTINUOUS
 62
   179
100
AcDbLine
 10
39.553309
 20
141.7378246537
 30
0.0
 11
38.960847
 21
141.3356176537
 31
0.0
  0
LINE
  5
53
330
1F
100
AcDbEntity
  8
SLD-0
  6
CONTINUOUS
 62
   179
100
AcDbLine
 10
40.144422
 20
142.1406056537
 30
0.0
 11
39.553309
 21
141.7378246537
 31
0.0
  0
LINE
  5
54
330
1F
100
AcDbEntity
  8
SLD-0
  6
CONTINUOUS
 62
   179
100
AcDbLine
 10
40.732502
 20
142.5460086537
 30
0.0
 11
40.144422
 21
142.1406056537
 31
0.0
  0
LINE
  5
55
330
1F
100
AcDbEntity
  8
SLD-0
  6
CONTINUOUS
 62
   179
100
AcDbLine
 10
41.024878
 20
142.7503336537
 30
0.0
 11
40.732502
 21
142.5460086537
 31
0.0
  0
LINE
  5
56
330
1F
100
AcDbEntity
  8
SLD-0
  6
CONTINUOUS
 62
   179
100
AcDbLine
 10
41.315864
 20
142.9560816537
 30
0.0
 11
41.024878
 21
142.7503336537
 31
0.0
  0
LINE
  5
57
330
1F
100
AcDbEntity
  8
SLD-0
  6
CONTINUOUS
 62
   179
100
AcDbLine
 10
41.60525
 20
143.1635086537
 30
0.0
 11
41.315864
 21
142.9560816537
 31
0.0
  0
LINE
  5
58
330
1F
100
AcDbEntity
  8
SLD-0
  6
CONTINUOUS
 62
   179
100
AcDbLine
 10
41.892825
 20
143.3728696537
 30
0.0
 11
41.60525
 21
143.1635086537
 31
0.0
  0
LINE
  5
59
330
1F
100
AcDbEntity
  8
SLD-0
  6
CONTINUOUS
 62
   179
100
AcDbLine
 10
42.178379
 20
143.5844226537
 30
0.0
 11
41.892825
 21
143.3728696537
 31
0.0
  0
LINE
  5
5A
330
1F
100
AcDbEntity
  8
SLD-0
  6
CONTINUOUS
 62
   179
100
AcDbLine
 10
42.461701
 20
143.7984226537
 30
0.0
 11
42.178379
 21
143.5844226537
 31
0.0
  0
LINE
  5
5B
330
1F
100
AcDbEntity
  8
SLD-0
  6
CONTINUOUS
 62
   179
100
AcDbLine
 10
42.74258
 20
144.0151246537
 30
0.0
 11
42.461701
 21
143.7984226537
 31
0.0
  0
LINE
  5
5C
330
1F
100
AcDbEntity
  8
SLD-0
  6
CONTINUOUS
 62
   179
100
AcDbLine
 10
43.020807
 20
144.2347856537
 30
0.0
 11
42.74258
 21
144.0151246537
 31
0.0
  0
LINE
  5
5D
330
1F
100
AcDbEntity
  8
SLD-0
  6
CONTINUOUS
 62
   179
100
AcDbLine
 10
43.29617
 20
144.4576616537
 30
0.0
 11
43.020807
 21
144.2347856537
 31
0.0
  0
LINE
  5
5E
330
1F
100
AcDbEntity
  8
SLD-0
  6
CONTINUOUS
 62
   179
100
AcDbLine
 10
43.568459
 20
144.6840076537
 30
0.0
 11
43.29617
 21
144.4576616537
 31
0.0
  0
LINE
  5
5F
330
1F
100
AcDbEntity
  8
SLD-0
  6
CONTINUOUS
 62
   179
100
AcDbLine
 10
43.837464
 20
144.9140806537
 30
0.0
 11
43.568459
 21
144.6840076537
 31
0.0
  0
LINE
  5
60
330
1F
100
AcDbEntity
  8
SLD-0
  6
CONTINUOUS
 62
   179
100
AcDbLine
 10
44.102974
 20
145.1481356537
 30
0.0
 11
43.837464
 21
144.9140806537
 31
0.0
  0
LINE
  5
61
330
1F
100
AcDbEntity
  8
SLD-0
  6
CONTINUOUS
 62
   179
100
AcDbLine
 10
44.364778
 20
145.3864286537
 30
0.0
 11
44.102974
 21
145.1481356537
 31
0.0
  0
LINE
  5
62
330
1F
100
AcDbEntity
  8
SLD-0
  6
CONTINUOUS
 62
   179
100
AcDbLine
 10
44.494225
 20
145.5072446537
 30
0.0
 11
44.364778
 21
145.3864286537
 31
0.0
  0
LINE
  5
63
330
1F
100
AcDbEntity
  8
SLD-0
  6
CONTINUOUS
 62
   179
100
AcDbLine
 10
44.622666
 20
145.6292166537
 30
0.0
 11
44.494225
 21
145.5072446537
 31
0.0
  0
LINE
  5
64
330
1F
100
AcDbEntity
  8
SLD-0
  6
CONTINUOUS
 62
   179
100
AcDbLine
 10
31.8212
 20
145.6721816537
 30
0.0
 11
44.622666
 21
145.6292166537
 31
0.0
  0
LINE
  5
65
330
1F
100
AcDbEntity
  8
SLD-0
  6
CONTINUOUS
 62
   179
100
AcDbLine
 10
29.126898
 20
142.0251846537
 30
0.0
 11
31.8212
 21
145.6721816537
 31
0.0
  0
LINE
  5
66
330
1F
100
AcDbEntity
  8
SLD-0
  6
CONTINUOUS
 62
   179
100
AcDbLine
 10
35.117812
 20
132.5441146537
 30
0.0
 11
29.126898
 21
142.0251846537
 31
0.0
  0
LINE
  5
67
330
1F
100
AcDbEntity
  8
SLD-0
  6
CONTINUOUS
 62
   179
100
AcDbLine
 10
34.57178
 20
131.6494956537
 30
0.0
 11
25.671009
 21
125.9415106537
 31
0.0
  0
LINE
  5
68
330
1F
100
AcDbEntity
  8
SLD-0
  6
CONTINUOUS
 62
   179
100
AcDbLine
 10
34.346106
 20
131.8749956537
 30
0.0
 11
34.57178
 21
131.6494956537
 31
0.0
  0
LINE
  5
69
330
1F
100
AcDbEntity
  8
SLD-0
  6
CONTINUOUS
 62
   179
100
AcDbLine
 10
28.272665
 20
131.9057996537
 30
0.0
 11
34.346106
 21
131.8749956537
 31
0.0
  0
LINE
  5
6A
330
1F
100
AcDbEntity
  8
SLD-0
  6
CONTINUOUS
 62
   179
100
AcDbLine
 10
21.868201
 20
141.5697126537
 30
0.0
 11
28.272665
 21
131.9057996537
 31
0.0
  0
LINE
  5
6B
330
1F
100
AcDbEntity
  8
SLD-0
  6
CONTINUOUS
 62
   179
100
AcDbLine
 10
21.706326
 20
141.2712636537
 30
0.0
 11
21.868201
 21
141.5697126537
 31
0.0
  0
LINE
  5
6C
330
1F
100
AcDbEntity
  8
SLD-0
  6
CONTINUOUS
 62
   179
100
AcDbLine
 10
21.706326
 20
128.6224206537
 30
0.0
 11
21.706326
 21
141.2712636537
 31
0.0
  0
LINE
  5
6D
330
1F
100
AcDbEntity
  8
SLD-0
  6
CONTINUOUS
 62
   179
100
AcDbLine
 10
25.671009
 20
125.9415106537
 30
0.0
 11
21.706326
 21
128.6224206537
 31
0.0
  0
LINE
  5
6E
330
1F
100
AcDbEntity
  8
SLD-0
  6
CONTINUOUS
 62
   179
100
AcDbLine
 10
48.516139
 20
122.9022176537
 30
0.0
 11
48.389374
 21
122.6313036537
 31
0.0
  0
LINE
  5
6F
330
1F
100
AcDbEntity
  8
SLD-0
  6
CONTINUOUS
 62
   179
100
AcDbLine
 10
48.516139
 20
135.5441116537
 30
0.0
 11
48.516139
 21
122.9022176537
 31
0.0
  0
LINE
  5
70
330
1F
100
AcDbEntity
  8
SLD-0
  6
CONTINUOUS
 62
   179
100
AcDbLine
 10
44.937062
 20
138.1887066537
 30
0.0
 11
48.516139
 21
135.5441116537
 31
0.0
  0
LINE
  5
71
330
1F
100
AcDbEntity
  8
SLD-0
  6
CONTINUOUS
 62
   179
100
AcDbLine
 10
44.673321
 20
138.0006396537
 30
0.0
 11
44.937062
 21
138.1887066537
 31
0.0
  0
LINE
  5
72
330
1F
100
AcDbEntity
  8
SLD-0
  6
CONTINUOUS
 62
   179
100
AcDbLine
 10
44.408841
 20
137.8138796537
 30
0.0
 11
44.673321
 21
138.0006396537
 31
0.0
  0
LINE
  5
73
330
1F
100
AcDbEntity
  8
SLD-0
  6
CONTINUOUS
 62
   179
100
AcDbLine
 10
43.877995
 20
137.4437276537
 30
0.0
 11
44.408841
 21
137.8138796537
 31
0.0
  0
LINE
  5
74
330
1F
100
AcDbEntity
  8
SLD-0
  6
CONTINUOUS
 62
   179
100
AcDbLine
 10
43.345177
 20
137.0771456537
 30
0.0
 11
43.877995
 21
137.4437276537
 31
0.0
  0
LINE
  5
75
330
1F
100
AcDbEntity
  8
SLD-0
  6
CONTINUOUS
 62
   179
100
AcDbLine
 10
42.811043
 20
136.7130276537
 30
0.0
 11
43.345177
 21
137.0771456537
 31
0.0
  0
LINE
  5
76
330
1F
100
AcDbEntity
  8
SLD-0
  6
CONTINUOUS
 62
   179
100
AcDbLine
 10
41.741449
 20
135.9877616537
 30
0.0
 11
42.811043
 21
136.7130276537
 31
0.0
  0
LINE
  5
77
330
1F
100
AcDbEntity
  8
SLD-0
  6
CONTINUOUS
 62
   179
100
AcDbLine
 10
41.2073
 20
135.6244006537
 30
0.0
 11
41.741449
 21
135.9877616537
 31
0.0
  0
LINE
  5
78
330
1F
100
AcDbEntity
  8
SLD-0
  6
CONTINUOUS
 62
   179
100
AcDbLine
 10
40.674455
 20
135.2590806537
 30
0.0
 11
41.2073
 21
135.6244006537
 31
0.0
  0
LINE
  5
79
330
1F
100
AcDbEntity
  8
SLD-0
  6
CONTINUOUS
 62
   179
100
AcDbLine
 10
40.143571
 20
134.8906946537
 30
0.0
 11
40.674455
 21
135.2590806537
 31
0.0
  0
LINE
  5
7A
330
1F
100
AcDbEntity
  8
SLD-0
  6
CONTINUOUS
 62
   179
100
AcDbLine
 10
39.615303
 20
134.5181376537
 30
0.0
 11
40.143571
 21
134.8906946537
 31
0.0
  0
LINE
  5
7B
330
1F
100
AcDbEntity
  8
SLD-0
  6
CONTINUOUS
 62
   179
100
AcDbLine
 10
39.352355
 20
134.3299486537
 30
0.0
 11
39.615303
 21
134.5181376537
 31
0.0
  0
LINE
  5
7C
330
1F
100
AcDbEntity
  8
SLD-0
  6
CONTINUOUS
 62
   179
100
AcDbLine
 10
39.090306
 20
134.1403026537
 30
0.0
 11
39.352355
 21
134.3299486537
 31
0.0
  0
LINE
  5
7D
330
1F
100
AcDbEntity
  8
SLD-0
  6
CONTINUOUS
 62
   179
100
AcDbLine
 10
38.829238
 20
133.9490616537
 30
0.0
 11
39.090306
 21
134.1403026537
 31
0.0
  0
LINE
  5
7E
330
1F
100
AcDbEntity
  8
SLD-0
  6
CONTINUOUS
 62
   179
100
AcDbLine
 10
38.569235
 20
133.7560856537
 30
0.0
 11
38.829238
 21
133.9490616537
 31
0.0
  0
LINE
  5
7F
330
1F
100
AcDbEntity
  8
SLD-0
  6
CONTINUOUS
 62
   179
100
AcDbLine
 10
38.310376
 20
133.5612376537
 30
0.0
 11
38.569235
 21
133.7560856537
 31
0.0
  0
LINE
  5
80
330
1F
100
AcDbEntity
  8
SLD-0
  6
CONTINUOUS
 62
   179
100
AcDbLine
 10
38.052745
 20
133.3643786537
 30
0.0
 11
38.310376
 21
133.5612376537
 31
0.0
  0
LINE
  5
81
330
1F
100
AcDbEntity
  8
SLD-0
  6
CONTINUOUS
 62
   179
100
AcDbLine
 10
37.796423
 20
133.1653706537
 30
0.0
 11
38.052745
 21
133.3643786537
 31
0.0
  0
LINE
  5
82
330
1F
100
AcDbEntity
  8
SLD-0
  6
CONTINUOUS
 62
   179
100
AcDbLine
 10
37.541492
 20
132.9640766537
 30
0.0
 11
37.796423
 21
133.1653706537
 31
0.0
  0
LINE
  5
83
330
1F
100
AcDbEntity
  8
SLD-0
  6
CONTINUOUS
 62
   179
100
AcDbLine
 10
37.288034
 20
132.7603566537
 30
0.0
 11
37.541492
 21
132.9640766537
 31
0.0
  0
LINE
  5
84
330
1F
100
AcDbEntity
  8
SLD-0
  6
CONTINUOUS
 62
   179
100
AcDbLine
 10
37.036131
 20
132.5540736537
 30
0.0
 11
37.288034
 21
132.7603566537
 31
0.0
  0
LINE
  5
85
330
1F
100
AcDbEntity
  8
SLD-0
  6
CONTINUOUS
 62
   179
100
AcDbLine
 10
36.785865
 20
132.3450886537
 30
0.0
 11
37.036131
 21
132.5540736537
 31
0.0
  0
LINE
  5
86
330
1F
100
AcDbEntity
  8
SLD-0
  6
CONTINUOUS
 62
   179
100
AcDbLine
 10
36.537317
 20
132.1332636537
 30
0.0
 11
36.785865
 21
132.3450886537
 31
0.0
  0
LINE
  5
87
330
1F
100
AcDbEntity
  8
SLD-0
  6
CONTINUOUS
 62
   179
100
AcDbLine
 10
42.564973
 20
131.8953966537
 30
0.0
 11
36.537317
 21
132.1332636537
 31
0.0
  0
LINE
  5
88
330
1F
100
AcDbEntity
  8
SLD-0
  6
CONTINUOUS
 62
   179
100
AcDbLine
 10
48.389374
 20
122.6313036537
 30
0.0
 11
42.564973
 21
131.8953966537
 31
0.0
  0
LINE
  5
89
330
1F
100
AcDbEntity
  8
SLD-0
  6
CONTINUOUS
 62
   179
100
AcDbLine
 10
26.87679
 20
118.8839886537
 30
0.0
 11
26.602649
 21
118.8839886537
 31
0.0
  0
LINE
  5
8A
330
1F
100
AcDbEntity
  8
SLD-0
  6
CONTINUOUS
 62
   179
100
AcDbLine
 10
27.068289
 20
118.8839886537
 30
0.0
 11
26.87679
 21
118.8839886537
 31
0.0
  0
LINE
  5
8B
330
1F
100
AcDbEntity
  8
SLD-0
  6
CONTINUOUS
 62
   179
100
AcDbLine
 10
38.761512
 20
118.8839886537
 30
0.0
 11
27.068289
 21
118.8839886537
 31
0.0
  0
LINE
  5
8C
330
1F
100
AcDbEntity
  8
SLD-0
  6
CONTINUOUS
 62
   179
100
AcDbLine
 10
41.657009
 20
122.2673596537
 30
0.0
 11
38.761512
 21
118.8839886537
 31
0.0
  0
LINE
  5
8D
330
1F
100
AcDbEntity
  8
SLD-0
  6
CONTINUOUS
 62
   179
100
AcDbLine
 10
35.813007
 20
131.0234866537
 30
0.0
 11
41.657009
 21
122.2673596537
 31
0.0
  0
LINE
  5
8E
330
1F
100
AcDbEntity
  8
SLD-0
  6
CONTINUOUS
 62
   179
100
AcDbLine
 10
35.515207
 20
130.7482486537
 30
0.0
 11
35.813007
 21
131.0234866537
 31
0.0
  0
LINE
  5
8F
330
1F
100
AcDbEntity
  8
SLD-0
  6
CONTINUOUS
 62
   179
100
AcDbLine
 10
35.482841
 20
124.7438726537
 30
0.0
 11
35.515207
 21
130.7482486537
 31
0.0
  0
LINE
  5
90
330
1F
100
AcDbEntity
  8
SLD-0
  6
CONTINUOUS
 62
   179
100
AcDbLine
 10
26.602649
 20
118.8839886537
 30
0.0
 11
35.482841
 21
124.7438726537
 31
0.0
  0
LINE
  5
91
330
1F
100
AcDbEntity
  8
SLD-0
  6
CONTINUOUS
 62
   179
100
AcDbLine
 10
15.578369
 20
118.8830456537
 30
0.0
 11
15.578369
 21
112.7609736537
 31
0.0
  0
LINE
  5
92
330
1F
100
AcDbEntity
  8
SLD-0
  6
CONTINUOUS
 62
   179
100
AcDbLine
 10
24.994028
 20
118.9294466537
 30
0.0
 11
15.578369
 21
118.8830456537
 31
0.0
  0
LINE
  5
93
330
1F
100
AcDbEntity
  8
SLD-0
  6
CONTINUOUS
 62
   179
100
AcDbLine
 10
24.709222
 20
119.1361976537
 30
0.0
 11
24.994028
 21
118.9294466537
 31
0.0
  0
LINE
  5
94
330
1F
100
AcDbEntity
  8
SLD-0
  6
CONTINUOUS
 62
   179
100
AcDbLine
 10
24.422115
 20
119.3397296537
 30
0.0
 11
24.709222
 21
119.1361976537
 31
0.0
  0
LINE
  5
95
330
1F
100
AcDbEntity
  8
SLD-0
  6
CONTINUOUS
 62
   179
100
AcDbLine
 10
24.132892
 20
119.5403246537
 30
0.0
 11
24.422115
 21
119.3397296537
 31
0.0
  0
LINE
  5
96
330
1F
100
AcDbEntity
  8
SLD-0
  6
CONTINUOUS
 62
   179
100
AcDbLine
 10
23.841736
 20
119.7382666537
 30
0.0
 11
24.132892
 21
119.5403246537
 31
0.0
  0
LINE
  5
97
330
1F
100
AcDbEntity
  8
SLD-0
  6
CONTINUOUS
 62
   179
100
AcDbLine
 10
23.54883
 20
119.9338406537
 30
0.0
 11
23.841736
 21
119.7382666537
 31
0.0
  0
LINE
  5
98
330
1F
100
AcDbEntity
  8
SLD-0
  6
CONTINUOUS
 62
   179
100
AcDbLine
 10
23.254358
 20
120.1273296537
 30
0.0
 11
23.54883
 21
119.9338406537
 31
0.0
  0
LINE
  5
99
330
1F
100
AcDbEntity
  8
SLD-0
  6
CONTINUOUS
 62
   179
100
AcDbLine
 10
22.958505
 20
120.3190166537
 30
0.0
 11
23.254358
 21
120.1273296537
 31
0.0
  0
LINE
  5
9A
330
1F
100
AcDbEntity
  8
SLD-0
  6
CONTINUOUS
 62
   179
100
AcDbLine
 10
22.661453
 20
120.5091866537
 30
0.0
 11
22.958505
 21
120.3190166537
 31
0.0
  0
LINE
  5
9B
330
1F
100
AcDbEntity
  8
SLD-0
  6
CONTINUOUS
 62
   179
100
AcDbLine
 10
22.064487
 20
120.8861076537
 30
0.0
 11
22.661453
 21
120.5091866537
 31
0.0
  0
LINE
  5
9C
330
1F
100
AcDbEntity
  8
SLD-0
  6
CONTINUOUS
 62
   179
100
AcDbLine
 10
21.46493
 20
121.2603636537
 30
0.0
 11
22.064487
 21
120.8861076537
 31
0.0
  0
LINE
  5
9D
330
1F
100
AcDbEntity
  8
SLD-0
  6
CONTINUOUS
 62
   179
100
AcDbLine
 10
20.864251
 20
121.6342236537
 30
0.0
 11
21.46493
 21
121.2603636537
 31
0.0
  0
LINE
  5
9E
330
1F
100
AcDbEntity
  8
SLD-0
  6
CONTINUOUS
 62
   179
100
AcDbLine
 10
20.263918
 20
122.0099566537
 30
0.0
 11
20.864251
 21
121.6342236537
 31
0.0
  0
LINE
  5
9F
330
1F
100
AcDbEntity
  8
SLD-0
  6
CONTINUOUS
 62
   179
100
AcDbLine
 10
19.964341
 20
122.1992356537
 30
0.0
 11
20.263918
 21
122.0099566537
 31
0.0
  0
LINE
  5
A0
330
1F
100
AcDbEntity
  8
SLD-0
  6
CONTINUOUS
 62
   179
100
AcDbLine
 10
19.665401
 20
122.3898336537
 30
0.0
 11
19.964341
 21
122.1992356537
 31
0.0
  0
LINE
  5
A1
330
1F
100
AcDbEntity
  8
SLD-0
  6
CONTINUOUS
 62
   179
100
AcDbLine
 10
19.367282
 20
122.5820356537
 30
0.0
 11
19.665401
 21
122.3898336537
 31
0.0
  0
LINE
  5
A2
330
1F
100
AcDbEntity
  8
SLD-0
  6
CONTINUOUS
 62
   179
100
AcDbLine
 10
19.070168
 20
122.7761246537
 30
0.0
 11
19.367282
 21
122.5820356537
 31
0.0
  0
LINE
  5
A3
330
1F
100
AcDbEntity
  8
SLD-0
  6
CONTINUOUS
 62
   179
100
AcDbLine
 10
18.774242
 20
122.9723846537
 30
0.0
 11
19.070168
 21
122.7761246537
 31
0.0
  0
LINE
  5
A4
330
1F
100
AcDbEntity
  8
SLD-0
  6
CONTINUOUS
 62
   179
100
AcDbLine
 10
18.479688
 20
123.1710986537
 30
0.0
 11
18.774242
 21
122.9723846537
 31
0.0
  0
LINE
  5
A5
330
1F
100
AcDbEntity
  8
SLD-0
  6
CONTINUOUS
 62
   179
100
AcDbLine
 10
18.186689
 20
123.3725506537
 30
0.0
 11
18.479688
 21
123.1710986537
 31
0.0
  0
LINE
  5
A6
330
1F
100
AcDbEntity
  8
SLD-0
  6
CONTINUOUS
 62
   179
100
AcDbLine
 10
17.895429
 20
123.5770256537
 30
0.0
 11
18.186689
 21
123.3725506537
 31
0.0
  0
LINE
  5
A7
330
1F
100
AcDbEntity
  8
SLD-0
  6
CONTINUOUS
 62
   179
100
AcDbLine
 10
17.606093
 20
123.7848056537
 30
0.0
 11
17.895429
 21
123.5770256537
 31
0.0
  0
LINE
  5
A8
330
1F
100
AcDbEntity
  8
SLD-0
  6
CONTINUOUS
 62
   179
100
AcDbLine
 10
17.318862
 20
123.9961746537
 30
0.0
 11
17.606093
 21
123.7848056537
 31
0.0
  0
LINE
  5
A9
330
1F
100
AcDbEntity
  8
SLD-0
  6
CONTINUOUS
 62
   179
100
AcDbLine
 10
17.033921
 20
124.2114176537
 30
0.0
 11
17.318862
 21
123.9961746537
 31
0.0
  0
LINE
  5
AA
330
1F
100
AcDbEntity
  8
SLD-0
  6
CONTINUOUS
 62
   179
100
AcDbLine
 10
16.751454
 20
124.4308176537
 30
0.0
 11
17.033921
 21
124.2114176537
 31
0.0
  0
LINE
  5
AB
330
1F
100
AcDbEntity
  8
SLD-0
  6
CONTINUOUS
 62
   179
100
AcDbLine
 10
16.471644
 20
124.6546576537
 30
0.0
 11
16.751454
 21
124.4308176537
 31
0.0
  0
LINE
  5
AC
330
1F
100
AcDbEntity
  8
SLD-0
  6
CONTINUOUS
 62
   179
100
AcDbLine
 10
16.194674
 20
124.8832226537
 30
0.0
 11
16.471644
 21
124.6546576537
 31
0.0
  0
LINE
  5
AD
330
1F
100
AcDbEntity
  8
SLD-0
  6
CONTINUOUS
 62
   179
100
AcDbLine
 10
15.920729
 20
125.1167956537
 30
0.0
 11
16.194674
 21
124.8832226537
 31
0.0
  0
LINE
  5
AE
330
1F
100
AcDbEntity
  8
SLD-0
  6
CONTINUOUS
 62
   179
100
AcDbLine
 10
15.784948
 20
125.2355486537
 30
0.0
 11
15.920729
 21
125.1167956537
 31
0.0
  0
LINE
  5
AF
330
1F
100
AcDbEntity
  8
SLD-0
  6
CONTINUOUS
 62
   179
100
AcDbLine
 10
15.649992
 20
125.3556596537
 30
0.0
 11
15.784948
 21
125.2355486537
 31
0.0
  0
LINE
  5
B0
330
1F
100
AcDbEntity
  8
SLD-0
  6
CONTINUOUS
 62
   179
100
AcDbLine
 10
15.578369
 20
151.7951966537
 30
0.0
 11
15.649992
 21
125.3556596537
 31
0.0
  0
LINE
  5
B1
330
1F
100
AcDbEntity
  8
SLD-0
  6
CONTINUOUS
 62
   179
100
AcDbLine
 10
21.705225
 20
151.7951966537
 30
0.0
 11
15.578369
 21
151.7951966537
 31
0.0
  0
LINE
  5
B2
330
1F
100
AcDbEntity
  8
SLD-0
  6
CONTINUOUS
 62
   179
100
AcDbLine
 10
21.759398
 20
142.3784526537
 30
0.0
 11
21.705225
 21
151.7951966537
 31
0.0
  0
LINE
  5
B3
330
1F
100
AcDbEntity
  8
SLD-0
  6
CONTINUOUS
 62
   179
100
AcDbLine
 10
21.878996
 20
142.5151156537
 30
0.0
 11
21.759398
 21
142.3784526537
 31
0.0
  0
LINE
  5
B4
330
1F
100
AcDbEntity
  8
SLD-0
  6
CONTINUOUS
 62
   179
100
AcDbLine
 10
21.997398
 20
142.6527026537
 30
0.0
 11
21.878996
 21
142.5151156537
 31
0.0
  0
LINE
  5
B5
330
1F
100
AcDbEntity
  8
SLD-0
  6
CONTINUOUS
 62
   179
100
AcDbLine
 10
22.230783
 20
142.9305236537
 30
0.0
 11
21.997398
 21
142.6527026537
 31
0.0
  0
LINE
  5
B6
330
1F
100
AcDbEntity
  8
SLD-0
  6
CONTINUOUS
 62
   179
100
AcDbLine
 10
22.4599
 20
143.2116676537
 30
0.0
 11
22.230783
 21
142.9305236537
 31
0.0
  0
LINE
  5
B7
330
1F
100
AcDbEntity
  8
SLD-0
  6
CONTINUOUS
 62
   179
100
AcDbLine
 10
22.685092
 20
143.4958866537
 30
0.0
 11
22.4599
 21
143.2116676537
 31
0.0
  0
LINE
  5
B8
330
1F
100
AcDbEntity
  8
SLD-0
  6
CONTINUOUS
 62
   179
100
AcDbLine
 10
22.906706
 20
143.7829326537
 30
0.0
 11
22.685092
 21
143.4958866537
 31
0.0
  0
LINE
  5
B9
330
1F
100
AcDbEntity
  8
SLD-0
  6
CONTINUOUS
 62
   179
100
AcDbLine
 10
23.125086
 20
144.0725556537
 30
0.0
 11
22.906706
 21
143.7829326537
 31
0.0
  0
LINE
  5
BA
330
1F
100
AcDbEntity
  8
SLD-0
  6
CONTINUOUS
 62
   179
100
AcDbLine
 10
23.340577
 20
144.3645096537
 30
0.0
 11
23.125086
 21
144.0725556537
 31
0.0
  0
LINE
  5
BB
330
1F
100
AcDbEntity
  8
SLD-0
  6
CONTINUOUS
 62
   179
100
AcDbLine
 10
23.553524
 20
144.6585456537
 30
0.0
 11
23.340577
 21
144.3645096537
 31
0.0
  0
LINE
  5
BC
330
1F
100
AcDbEntity
  8
SLD-0
  6
CONTINUOUS
 62
   179
100
AcDbLine
 10
23.764273
 20
144.9544146537
 30
0.0
 11
23.553524
 21
144.6585456537
 31
0.0
  0
LINE
  5
BD
330
1F
100
AcDbEntity
  8
SLD-0
  6
CONTINUOUS
 62
   179
100
AcDbLine
 10
23.973168
 20
145.2518696537
 30
0.0
 11
23.764273
 21
144.9544146537
 31
0.0
  0
LINE
  5
BE
330
1F
100
AcDbEntity
  8
SLD-0
  6
CONTINUOUS
 62
   179
100
AcDbLine
 10
24.180554
 20
145.5506616537
 30
0.0
 11
23.973168
 21
145.2518696537
 31
0.0
  0
LINE
  5
BF
330
1F
100
AcDbEntity
  8
SLD-0
  6
CONTINUOUS
 62
   179
100
AcDbLine
 10
24.386777
 20
145.8505426537
 30
0.0
 11
24.180554
 21
145.5506616537
 31
0.0
  0
LINE
  5
C0
330
1F
100
AcDbEntity
  8
SLD-0
  6
CONTINUOUS
 62
   179
100
AcDbLine
 10
24.797111
 20
146.4525786537
 30
0.0
 11
24.386777
 21
145.8505426537
 31
0.0
  0
LINE
  5
C1
330
1F
100
AcDbEntity
  8
SLD-0
  6
CONTINUOUS
 62
   179
100
AcDbLine
 10
25.206932
 20
147.0559916537
 30
0.0
 11
24.797111
 21
146.4525786537
 31
0.0
  0
LINE
  5
C2
330
1F
100
AcDbEntity
  8
SLD-0
  6
CONTINUOUS
 62
   179
100
AcDbLine
 10
25.618998
 20
147.6587956537
 30
0.0
 11
25.206932
 21
147.0559916537
 31
0.0
  0
LINE
  5
C3
330
1F
100
AcDbEntity
  8
SLD-0
  6
CONTINUOUS
 62
   179
100
AcDbLine
 10
25.826736
 20
147.9593486537
 30
0.0
 11
25.618998
 21
147.6587956537
 31
0.0
  0
LINE
  5
C4
330
1F
100
AcDbEntity
  8
SLD-0
  6
CONTINUOUS
 62
   179
100
AcDbLine
 10
26.036071
 20
148.2590046537
 30
0.0
 11
25.826736
 21
147.9593486537
 31
0.0
  0
LINE
  5
C5
330
1F
100
AcDbEntity
  8
SLD-0
  6
CONTINUOUS
 62
   179
100
AcDbLine
 10
26.247347
 20
148.5575156537
 30
0.0
 11
26.036071
 21
148.2590046537
 31
0.0
  0
LINE
  5
C6
330
1F
100
AcDbEntity
  8
SLD-0
  6
CONTINUOUS
 62
   179
100
AcDbLine
 10
26.46091
 20
148.8546336537
 30
0.0
 11
26.247347
 21
148.5575156537
 31
0.0
  0
LINE
  5
C7
330
1F
100
AcDbEntity
  8
SLD-0
  6
CONTINUOUS
 62
   179
100
AcDbLine
 10
26.677105
 20
149.1501096537
 30
0.0
 11
26.46091
 21
148.8546336537
 31
0.0
  0
LINE
  5
C8
330
1F
100
AcDbEntity
  8
SLD-0
  6
CONTINUOUS
 62
   179
100
AcDbLine
 10
26.896277
 20
149.4436956537
 30
0.0
 11
26.677105
 21
149.1501096537
 31
0.0
  0
LINE
  5
C9
330
1F
100
AcDbEntity
  8
SLD-0
  6
CONTINUOUS
 62
   179
100
AcDbLine
 10
27.11877
 20
149.7351436537
 30
0.0
 11
26.896277
 21
149.4436956537
 31
0.0
  0
LINE
  5
CA
330
1F
100
AcDbEntity
  8
SLD-0
  6
CONTINUOUS
 62
   179
100
AcDbLine
 10
27.34493
 20
150.0242056537
 30
0.0
 11
27.11877
 21
149.7351436537
 31
0.0
  0
LINE
  5
CB
330
1F
100
AcDbEntity
  8
SLD-0
  6
CONTINUOUS
 62
   179
100
AcDbLine
 10
27.575102
 20
150.3106326537
 30
0.0
 11
27.34493
 21
150.0242056537
 31
0.0
  0
LINE
  5
CC
330
1F
100
AcDbEntity
  8
SLD-0
  6
CONTINUOUS
 62
   179
100
AcDbLine
 10
27.809631
 20
150.5941776537
 30
0.0
 11
27.575102
 21
150.3106326537
 31
0.0
  0
LINE
  5
CD
330
1F
100
AcDbEntity
  8
SLD-0
  6
CONTINUOUS
 62
   179
100
AcDbLine
 10
28.048862
 20
150.8745916537
 30
0.0
 11
27.809631
 21
150.5941776537
 31
0.0
  0
LINE
  5
CE
330
1F
100
AcDbEntity
  8
SLD-0
  6
CONTINUOUS
 62
   179
100
AcDbLine
 10
28.170349
 20
151.0135466537
 30
0.0
 11
28.048862
 21
150.8745916537
 31
0.0
  0
LINE
  5
CF
330
1F
100
AcDbEntity
  8
SLD-0
  6
CONTINUOUS
 62
   179
100
AcDbLine
 10
28.29314
 20
151.1516256537
 30
0.0
 11
28.170349
 21
151.0135466537
 31
0.0
  0
LINE
  5
D0
330
1F
100
AcDbEntity
  8
SLD-0
  6
CONTINUOUS
 62
   179
100
AcDbLine
 10
28.41728
 20
151.2887986537
 30
0.0
 11
28.29314
 21
151.1516256537
 31
0.0
  0
LINE
  5
D1
330
1F
100
AcDbEntity
  8
SLD-0
  6
CONTINUOUS
 62
   179
100
AcDbLine
 10
28.54281
 20
151.4250326537
 30
0.0
 11
28.41728
 21
151.2887986537
 31
0.0
  0
LINE
  5
D2
330
1F
100
AcDbEntity
  8
SLD-0
  6
CONTINUOUS
 62
   179
100
AcDbLine
 10
28.669775
 20
151.5602986537
 30
0.0
 11
28.54281
 21
151.4250326537
 31
0.0
  0
LINE
  5
D3
330
1F
100
AcDbEntity
  8
SLD-0
  6
CONTINUOUS
 62
   179
100
AcDbLine
 10
28.798217
 20
151.6945646537
 30
0.0
 11
28.669775
 21
151.5602986537
 31
0.0
  0
LINE
  5
D4
330
1F
100
AcDbEntity
  8
SLD-0
  6
CONTINUOUS
 62
   179
100
AcDbLine
 10
54.644097
 20
151.7951966537
 30
0.0
 11
28.798217
 21
151.6945646537
 31
0.0
  0
LINE
  5
D5
330
1F
100
AcDbEntity
  8
SLD-0
  6
CONTINUOUS
 62
   179
100
AcDbLine
 10
54.644097
 20
145.6721816537
 30
0.0
 11
54.644097
 21
151.7951966537
 31
0.0
  0
LINE
  5
D6
330
1F
100
AcDbEntity
  8
SLD-0
  6
CONTINUOUS
 62
   179
100
AcDbLine
 10
45.102147
 20
145.6721816537
 30
0.0
 11
54.644097
 21
145.6721816537
 31
0.0
  0
LINE
  5
D7
330
1F
100
AcDbEntity
  8
SLD-0
  6
CONTINUOUS
 62
   179
100
AcDbLine
 10
54.644097
 20
139.2574286537
 30
0.0
 11
45.102147
 21
145.6721816537
 31
0.0
  0
LINE
  5
D8
330
1F
100
AcDbEntity
  8
SLD-0
  6
CONTINUOUS
 62
   179
100
AcDbLine
 10
54.644097
 20
112.7609736537
 30
0.0
 11
54.644097
 21
139.2574286537
 31
0.0
  0
LINE
  5
D9
330
1F
100
AcDbEntity
  8
SLD-0
  6
CONTINUOUS
 62
   179
100
AcDbLine
 10
48.516139
 20
112.7609736537
 30
0.0
 11
54.644097
 21
112.7609736537
 31
0.0
  0
LINE
  5
DA
330
1F
100
AcDbEntity
  8
SLD-0
  6
CONTINUOUS
 62
   179
100
AcDbLine
 10
48.516139
 20
121.5080206537
 30
0.0
 11
48.516139
 21
112.7609736537
 31
0.0
  0
LINE
  5
DB
330
1F
100
AcDbEntity
  8
SLD-0
  6
CONTINUOUS
 62
   179
100
AcDbLine
 10
42.616225
 20
112.7609736537
 30
0.0
 11
48.516139
 21
121.5080206537
 31
0.0
  0
LINE
  5
DC
330
1F
100
AcDbEntity
  8
SLD-0
  6
CONTINUOUS
 62
   179
100
AcDbLine
 10
15.578369
 20
112.7609736537
 30
0.0
 11
42.616225
 21
112.7609736537
 31
0.0
  0
LINE
  5
DD
330
1F
100
AcDbEntity
  8
SLD-0
  6
CONTINUOUS
 62
   179
100
AcDbLine
 10
33.004747
 20
104.3418276537
 30
0.0
 11
32.68676
 21
104.3418276537
 31
0.0
  0
LINE
  5
DE
330
1F
100
AcDbEntity
  8
SLD-0
  6
CONTINUOUS
 62
   179
100
AcDbLine
 10
33.196246
 20
104.3418276537
 30
0.0
 11
33.004747
 21
104.3418276537
 31
0.0
  0
LINE
  5
DF
330
1F
100
AcDbEntity
  8
SLD-0
  6
CONTINUOUS
 62
   179
100
AcDbLine
 10
36.260225
 20
104.3418276537
 30
0.0
 11
33.196246
 21
104.3418276537
 31
0.0
  0
LINE
  5
E0
330
1F
100
AcDbEntity
  8
SLD-0
  6
CONTINUOUS
 62
   179
100
AcDbLine
 10
36.260225
 20
107.2519856537
 30
0.0
 11
36.260225
 21
104.3418276537
 31
0.0
  0
LINE
  5
E1
330
1F
100
AcDbEntity
  8
SLD-0
  6
CONTINUOUS
 62
   179
100
AcDbLine
 10
32.68676
 20
104.3418276537
 30
0.0
 11
36.260225
 21
107.2519856537
 31
0.0
  0
LINE
  5
E2
330
1F
100
AcDbEntity
  8
SLD-0
  6
CONTINUOUS
 62
   179
100
AcDbLine
 10
22.585712
 20
100.2365026537
 30
0.0
 11
18.642347
 21
97.0424346537
 31
0.0
  0
LINE
  5
E3
330
1F
100
AcDbEntity
  8
SLD-0
  6
CONTINUOUS
 62
   179
100
AcDbLine
 10
18.642347
 20
103.4364166537
 30
0.0
 11
22.585712
 21
100.2365026537
 31
0.0
  0
LINE
  5
E4
330
1F
100
AcDbEntity
  8
SLD-0
  6
CONTINUOUS
 62
   179
100
AcDbLine
 10
18.642347
 20
97.0424346537
 30
0.0
 11
18.642347
 21
103.4364166537
 31
0.0
  0
LINE
  5
E5
330
1F
100
AcDbEntity
  8
SLD-0
  6
CONTINUOUS
 62
   179
100
AcDbLine
 10
47.750145
 20
96.6880576537
 30
0.0
 11
50.814123
 21
96.6880576537
 31
0.0
  0
LINE
  5
E6
330
1F
100
AcDbEntity
  8
SLD-0
  6
CONTINUOUS
 62
   179
100
AcDbLine
 10
47.750145
 20
107.4033346537
 30
0.0
 11
47.750145
 21
96.6880576537
 31
0.0
  0
LINE
  5
E7
330
1F
100
AcDbEntity
  8
SLD-0
  6
CONTINUOUS
 62
   179
100
AcDbLine
 10
43.920171
 20
107.4033346537
 30
0.0
 11
47.750145
 21
107.4033346537
 31
0.0
  0
LINE
  5
E8
330
1F
100
AcDbEntity
  8
SLD-0
  6
CONTINUOUS
 62
   179
100
AcDbLine
 10
43.920171
 20
110.4648426537
 30
0.0
 11
43.920171
 21
107.4033346537
 31
0.0
  0
LINE
  5
E9
330
1F
100
AcDbEntity
  8
SLD-0
  6
CONTINUOUS
 62
   179
100
AcDbLine
 10
55.410091
 20
110.4648426537
 30
0.0
 11
43.920171
 21
110.4648426537
 31
0.0
  0
LINE
  5
EA
330
1F
100
AcDbEntity
  8
SLD-0
  6
CONTINUOUS
 62
   179
100
AcDbLine
 10
55.410091
 20
107.4033346537
 30
0.0
 11
55.410091
 21
110.4648426537
 31
0.0
  0
LINE
  5
EB
330
1F
100
AcDbEntity
  8
SLD-0
  6
CONTINUOUS
 62
   179
100
AcDbLine
 10
50.814123
 20
107.4033346537
 30
0.0
 11
55.410091
 21
107.4033346537
 31
0.0
  0
LINE
  5
EC
330
1F
100
AcDbEntity
  8
SLD-0
  6
CONTINUOUS
 62
   179
100
AcDbLine
 10
50.814123
 20
96.6880576537
 30
0.0
 11
50.814123
 21
107.4033346537
 31
0.0
  0
LINE
  5
ED
330
1F
100
AcDbEntity
  8
SLD-0
  6
CONTINUOUS
 62
   179
100
AcDbLine
 10
40.090198
 20
110.4648426537
 30
0.0
 11
40.090198
 21
96.6880576537
 31
0.0
  0
LINE
  5
EE
330
1F
100
AcDbEntity
  8
SLD-0
  6
CONTINUOUS
 62
   179
100
AcDbLine
 10
43.154177
 20
110.4648426537
 30
0.0
 11
40.090198
 21
110.4648426537
 31
0.0
  0
LINE
  5
EF
330
1F
100
AcDbEntity
  8
SLD-0
  6
CONTINUOUS
 62
   179
100
AcDbLine
 10
43.154177
 20
99.7495656537
 30
0.0
 11
43.154177
 21
110.4648426537
 31
0.0
  0
LINE
  5
F0
330
1F
100
AcDbEntity
  8
SLD-0
  6
CONTINUOUS
 62
   179
100
AcDbLine
 10
46.98415
 20
99.7495656537
 30
0.0
 11
43.154177
 21
99.7495656537
 31
0.0
  0
LINE
  5
F1
330
1F
100
AcDbEntity
  8
SLD-0
  6
CONTINUOUS
 62
   179
100
AcDbLine
 10
46.98415
 20
96.6880576537
 30
0.0
 11
46.98415
 21
99.7495656537
 31
0.0
  0
LINE
  5
F2
330
1F
100
AcDbEntity
  8
SLD-0
  6
CONTINUOUS
 62
   179
100
AcDbLine
 10
40.090198
 20
96.6880576537
 30
0.0
 11
46.98415
 21
96.6880576537
 31
0.0
  0
LINE
  5
F3
330
1F
100
AcDbEntity
  8
SLD-0
  6
CONTINUOUS
 62
   179
100
AcDbLine
 10
15.578369
 20
110.4648426537
 30
0.0
 11
15.578369
 21
96.6880576537
 31
0.0
  0
LINE
  5
F4
330
1F
100
AcDbEntity
  8
SLD-0
  6
CONTINUOUS
 62
   179
100
AcDbLine
 10
18.642347
 20
110.4648426537
 30
0.0
 11
15.578369
 21
110.4648426537
 31
0.0
  0
LINE
  5
F5
330
1F
100
AcDbEntity
  8
SLD-0
  6
CONTINUOUS
 62
   179
100
AcDbLine
 10
18.642347
 20
103.9473576537
 30
0.0
 11
18.642347
 21
110.4648426537
 31
0.0
  0
LINE
  5
F6
330
1F
100
AcDbEntity
  8
SLD-0
  6
CONTINUOUS
 62
   179
100
AcDbLine
 10
25.478114
 20
110.4648426537
 30
0.0
 11
18.642347
 21
103.9473576537
 31
0.0
  0
LINE
  5
F7
330
1F
100
AcDbEntity
  8
SLD-0
  6
CONTINUOUS
 62
   179
100
AcDbLine
 10
29.886586
 20
110.4648426537
 30
0.0
 11
25.478114
 21
110.4648426537
 31
0.0
  0
LINE
  5
F8
330
1F
100
AcDbEntity
  8
SLD-0
  6
CONTINUOUS
 62
   179
100
AcDbLine
 10
23.189023
 20
103.8316676537
 30
0.0
 11
29.886586
 21
110.4648426537
 31
0.0
  0
LINE
  5
F9
330
1F
100
AcDbEntity
  8
SLD-0
  6
CONTINUOUS
 62
   179
100
AcDbLine
 10
25.067403
 20
102.2498956537
 30
0.0
 11
23.189023
 21
103.8316676537
 31
0.0
  0
LINE
  5
FA
330
1F
100
AcDbEntity
  8
SLD-0
  6
CONTINUOUS
 62
   179
100
AcDbLine
 10
35.000623
 20
110.4648426537
 30
0.0
 11
25.067403
 21
102.2498956537
 31
0.0
  0
LINE
  5
FB
330
1F
100
AcDbEntity
  8
SLD-0
  6
CONTINUOUS
 62
   179
100
AcDbLine
 10
39.324203
 20
110.4648426537
 30
0.0
 11
35.000623
 21
110.4648426537
 31
0.0
  0
LINE
  5
FC
330
1F
100
AcDbEntity
  8
SLD-0
  6
CONTINUOUS
 62
   179
100
AcDbLine
 10
39.324203
 20
96.6880576537
 30
0.0
 11
39.324203
 21
110.4648426537
 31
0.0
  0
LINE
  5
FD
330
1F
100
AcDbEntity
  8
SLD-0
  6
CONTINUOUS
 62
   179
100
AcDbLine
 10
36.260225
 20
96.6880576537
 30
0.0
 11
39.324203
 21
96.6880576537
 31
0.0
  0
LINE
  5
FE
330
1F
100
AcDbEntity
  8
SLD-0
  6
CONTINUOUS
 62
   179
100
AcDbLine
 10
36.260225
 20
101.2803196537
 30
0.0
 11
36.260225
 21
96.6880576537
 31
0.0
  0
LINE
  5
FF
330
1F
100
AcDbEntity
  8
SLD-0
  6
CONTINUOUS
 62
   179
100
AcDbLine
 10
28.883179
 20
101.2803196537
 30
0.0
 11
36.260225
 21
101.2803196537
 31
0.0
  0
LINE
  5
100
330
1F
100
AcDbEntity
  8
SLD-0
  6
CONTINUOUS
 62
   179
100
AcDbLine
 10
27.396713
 20
100.0311006537
 30
0.0
 11
28.883179
 21
101.2803196537
 31
0.0
  0
LINE
  5
101
330
1F
100
AcDbEntity
  8
SLD-0
  6
CONTINUOUS
 62
   179
100
AcDbLine
 10
31.027764
 20
96.6922716537
 30
0.0
 11
27.396713
 21
100.0311006537
 31
0.0
  0
LINE
  5
102
330
1F
100
AcDbEntity
  8
SLD-0
  6
CONTINUOUS
 62
   179
100
AcDbLine
 10
27.065897
 20
96.6402636537
 30
0.0
 11
31.027764
 21
96.6922716537
 31
0.0
  0
LINE
  5
103
330
1F
100
AcDbEntity
  8
SLD-0
  6
CONTINUOUS
 62
   179
100
AcDbLine
 10
26.951187
 20
96.7456886537
 30
0.0
 11
27.065897
 21
96.6402636537
 31
0.0
  0
LINE
  5
104
330
1F
100
AcDbEntity
  8
SLD-0
  6
CONTINUOUS
 62
   179
100
AcDbLine
 10
26.836386
 20
96.8492816537
 30
0.0
 11
26.951187
 21
96.7456886537
 31
0.0
  0
LINE
  5
105
330
1F
100
AcDbEntity
  8
SLD-0
  6
CONTINUOUS
 62
   179
100
AcDbLine
 10
26.72147
 20
96.9505426537
 30
0.0
 11
26.836386
 21
96.8492816537
 31
0.0
  0
LINE
  5
106
330
1F
100
AcDbEntity
  8
SLD-0
  6
CONTINUOUS
 62
   179
100
AcDbLine
 10
26.606415
 20
97.0489716537
 30
0.0
 11
26.72147
 21
96.9505426537
 31
0.0
  0
LINE
  5
107
330
1F
100
AcDbEntity
  8
SLD-0
  6
CONTINUOUS
 62
   179
100
AcDbLine
 10
26.491196
 20
97.1440666537
 30
0.0
 11
26.606415
 21
97.0489716537
 31
0.0
  0
LINE
  5
108
330
1F
100
AcDbEntity
  8
SLD-0
  6
CONTINUOUS
 62
   179
100
AcDbLine
 10
26.375791
 20
97.2353286537
 30
0.0
 11
26.491196
 21
97.1440666537
 31
0.0
  0
LINE
  5
109
330
1F
100
AcDbEntity
  8
SLD-0
  6
CONTINUOUS
 62
   179
100
AcDbLine
 10
26.260173
 20
97.3222546537
 30
0.0
 11
26.375791
 21
97.2353286537
 31
0.0
  0
LINE
  5
10A
330
1F
100
AcDbEntity
  8
SLD-0
  6
CONTINUOUS
 62
   179
100
AcDbLine
 10
26.14432
 20
97.4043466537
 30
0.0
 11
26.260173
 21
97.3222546537
 31
0.0
  0
LINE
  5
10B
330
1F
100
AcDbEntity
  8
SLD-0
  6
CONTINUOUS
 62
   179
100
AcDbLine
 10
26.028206
 20
97.4811026537
 30
0.0
 11
26.14432
 21
97.4043466537
 31
0.0
  0
LINE
  5
10C
330
1F
100
AcDbEntity
  8
SLD-0
  6
CONTINUOUS
 62
   179
100
AcDbLine
 10
25.911809
 20
97.5520216537
 30
0.0
 11
26.028206
 21
97.4811026537
 31
0.0
  0
LINE
  5
10D
330
1F
100
AcDbEntity
  8
SLD-0
  6
CONTINUOUS
 62
   179
100
AcDbLine
 10
25.795103
 20
97.6166046537
 30
0.0
 11
25.911809
 21
97.5520216537
 31
0.0
  0
LINE
  5
10E
330
1F
100
AcDbEntity
  8
SLD-0
  6
CONTINUOUS
 62
   179
100
AcDbLine
 10
25.736627
 20
97.6463626537
 30
0.0
 11
25.795103
 21
97.6166046537
 31
0.0
  0
LINE
  5
10F
330
1F
100
AcDbEntity
  8
SLD-0
  6
CONTINUOUS
 62
   179
100
AcDbLine
 10
25.678065
 20
97.6743496537
 30
0.0
 11
25.736627
 21
97.6463626537
 31
0.0
  0
LINE
  5
110
330
1F
100
AcDbEntity
  8
SLD-0
  6
CONTINUOUS
 62
   179
100
AcDbLine
 10
25.619414
 20
97.7005016537
 30
0.0
 11
25.678065
 21
97.6743496537
 31
0.0
  0
LINE
  5
111
330
1F
100
AcDbEntity
  8
SLD-0
  6
CONTINUOUS
 62
   179
100
AcDbLine
 10
25.56067
 20
97.7247556537
 30
0.0
 11
25.619414
 21
97.7005016537
 31
0.0
  0
LINE
  5
112
330
1F
100
AcDbEntity
  8
SLD-0
  6
CONTINUOUS
 62
   179
100
AcDbLine
 10
25.501831
 20
97.7470506537
 30
0.0
 11
25.56067
 21
97.7247556537
 31
0.0
  0
LINE
  5
113
330
1F
100
AcDbEntity
  8
SLD-0
  6
CONTINUOUS
 62
   179
100
AcDbLine
 10
25.442894
 20
97.7673236537
 30
0.0
 11
25.501831
 21
97.7470506537
 31
0.0
  0
LINE
  5
114
330
1F
100
AcDbEntity
  8
SLD-0
  6
CONTINUOUS
 62
   179
100
AcDbLine
 10
25.383856
 20
97.7855116537
 30
0.0
 11
25.442894
 21
97.7673236537
 31
0.0
  0
LINE
  5
115
330
1F
100
AcDbEntity
  8
SLD-0
  6
CONTINUOUS
 62
   179
100
AcDbLine
 10
25.324713
 20
97.8015516537
 30
0.0
 11
25.383856
 21
97.7855116537
 31
0.0
  0
LINE
  5
116
330
1F
100
AcDbEntity
  8
SLD-0
  6
CONTINUOUS
 62
   179
100
AcDbLine
 10
25.265463
 20
97.8153826537
 30
0.0
 11
25.324713
 21
97.8015516537
 31
0.0
  0
LINE
  5
117
330
1F
100
AcDbEntity
  8
SLD-0
  6
CONTINUOUS
 62
   179
100
AcDbLine
 10
25.206103
 20
97.8269406537
 30
0.0
 11
25.265463
 21
97.8153826537
 31
0.0
  0
LINE
  5
118
330
1F
100
AcDbEntity
  8
SLD-0
  6
CONTINUOUS
 62
   179
100
AcDbLine
 10
25.146629
 20
97.8361626537
 30
0.0
 11
25.206103
 21
97.8269406537
 31
0.0
  0
LINE
  5
119
330
1F
100
AcDbEntity
  8
SLD-0
  6
CONTINUOUS
 62
   179
100
AcDbLine
 10
25.08704
 20
97.8429876537
 30
0.0
 11
25.146629
 21
97.8361626537
 31
0.0
  0
LINE
  5
11A
330
1F
100
AcDbEntity
  8
SLD-0
  6
CONTINUOUS
 62
   179
100
AcDbLine
 10
25.02733
 20
97.8473526537
 30
0.0
 11
25.08704
 21
97.8429876537
 31
0.0
  0
LINE
  5
11B
330
1F
100
AcDbEntity
  8
SLD-0
  6
CONTINUOUS
 62
   179
100
AcDbLine
 10
24.967498
 20
97.8491936537
 30
0.0
 11
25.02733
 21
97.8473526537
 31
0.0
  0
LINE
  5
11C
330
1F
100
AcDbEntity
  8
SLD-0
  6
CONTINUOUS
 62
   179
100
AcDbLine
 10
24.907541
 20
97.8484496537
 30
0.0
 11
24.967498
 21
97.8491936537
 31
0.0
  0
LINE
  5
11D
330
1F
100
AcDbEntity
  8
SLD-0
  6
CONTINUOUS
 62
   179
100
AcDbLine
 10
24.847456
 20
97.8450576537
 30
0.0
 11
24.907541
 21
97.8484496537
 31
0.0
  0
LINE
  5
11E
330
1F
100
AcDbEntity
  8
SLD-0
  6
CONTINUOUS
 62
   179
100
AcDbLine
 10
24.787239
 20
97.8389556537
 30
0.0
 11
24.847456
 21
97.8450576537
 31
0.0
  0
LINE
  5
11F
330
1F
100
AcDbEntity
  8
SLD-0
  6
CONTINUOUS
 62
   179
100
AcDbLine
 10
24.726887
 20
97.8300796537
 30
0.0
 11
24.787239
 21
97.8389556537
 31
0.0
  0
LINE
  5
120
330
1F
100
AcDbEntity
  8
SLD-0
  6
CONTINUOUS
 62
   179
100
AcDbLine
 10
24.666398
 20
97.8183676537
 30
0.0
 11
24.726887
 21
97.8300796537
 31
0.0
  0
LINE
  5
121
330
1F
100
AcDbEntity
  8
SLD-0
  6
CONTINUOUS
 62
   179
100
AcDbLine
 10
24.605768
 20
97.8037576537
 30
0.0
 11
24.666398
 21
97.8183676537
 31
0.0
  0
LINE
  5
122
330
1F
100
AcDbEntity
  8
SLD-0
  6
CONTINUOUS
 62
   179
100
AcDbLine
 10
24.544995
 20
97.7861876537
 30
0.0
 11
24.605768
 21
97.8037576537
 31
0.0
  0
LINE
  5
123
330
1F
100
AcDbEntity
  8
SLD-0
  6
CONTINUOUS
 62
   179
100
AcDbLine
 10
24.484075
 20
97.7655926537
 30
0.0
 11
24.544995
 21
97.7861876537
 31
0.0
  0
LINE
  5
124
330
1F
100
AcDbEntity
  8
SLD-0
  6
CONTINUOUS
 62
   179
100
AcDbLine
 10
24.423006
 20
97.7419126537
 30
0.0
 11
24.484075
 21
97.7655926537
 31
0.0
  0
LINE
  5
125
330
1F
100
AcDbEntity
  8
SLD-0
  6
CONTINUOUS
 62
   179
100
AcDbLine
 10
24.361784
 20
97.7150826537
 30
0.0
 11
24.423006
 21
97.7419126537
 31
0.0
  0
LINE
  5
126
330
1F
100
AcDbEntity
  8
SLD-0
  6
CONTINUOUS
 62
   179
100
AcDbLine
 10
24.300406
 20
97.6850426537
 30
0.0
 11
24.361784
 21
97.7150826537
 31
0.0
  0
LINE
  5
127
330
1F
100
AcDbEntity
  8
SLD-0
  6
CONTINUOUS
 62
   179
100
AcDbLine
 10
24.23887
 20
97.6517286537
 30
0.0
 11
24.300406
 21
97.6850426537
 31
0.0
  0
LINE
  5
128
330
1F
100
AcDbEntity
  8
SLD-0
  6
CONTINUOUS
 62
   179
100
AcDbLine
 10
24.177172
 20
97.6150776537
 30
0.0
 11
24.23887
 21
97.6517286537
 31
0.0
  0
LINE
  5
129
330
1F
100
AcDbEntity
  8
SLD-0
  6
CONTINUOUS
 62
   179
100
AcDbLine
 10
24.115309
 20
97.5750276537
 30
0.0
 11
24.177172
 21
97.6150776537
 31
0.0
  0
LINE
  5
12A
330
1F
100
AcDbEntity
  8
SLD-0
  6
CONTINUOUS
 62
   179
100
AcDbLine
 10
24.053278
 20
97.5315166537
 30
0.0
 11
24.115309
 21
97.5750276537
 31
0.0
  0
LINE
  5
12B
330
1F
100
AcDbEntity
  8
SLD-0
  6
CONTINUOUS
 62
   179
100
AcDbLine
 10
23.991077
 20
97.4844816537
 30
0.0
 11
24.053278
 21
97.5315166537
 31
0.0
  0
LINE
  5
12C
330
1F
100
AcDbEntity
  8
SLD-0
  6
CONTINUOUS
 62
   179
100
AcDbLine
 10
23.928702
 20
97.4338586537
 30
0.0
 11
23.991077
 21
97.4844816537
 31
0.0
  0
LINE
  5
12D
330
1F
100
AcDbEntity
  8
SLD-0
  6
CONTINUOUS
 62
   179
100
AcDbLine
 10
23.86615
 20
97.3795876537
 30
0.0
 11
23.928702
 21
97.4338586537
 31
0.0
  0
LINE
  5
12E
330
1F
100
AcDbEntity
  8
SLD-0
  6
CONTINUOUS
 62
   179
100
AcDbLine
 10
23.803418
 20
97.3216046537
 30
0.0
 11
23.86615
 21
97.3795876537
 31
0.0
  0
LINE
  5
12F
330
1F
100
AcDbEntity
  8
SLD-0
  6
CONTINUOUS
 62
   179
100
AcDbLine
 10
23.740504
 20
97.2598466537
 30
0.0
 11
23.803418
 21
97.3216046537
 31
0.0
  0
LINE
  5
130
330
1F
100
AcDbEntity
  8
SLD-0
  6
CONTINUOUS
 62
   179
100
AcDbLine
 10
23.677403
 20
97.1942516537
 30
0.0
 11
23.740504
 21
97.2598466537
 31
0.0
  0
LINE
  5
131
330
1F
100
AcDbEntity
  8
SLD-0
  6
CONTINUOUS
 62
   179
100
AcDbLine
 10
23.614114
 20
97.1247576537
 30
0.0
 11
23.677403
 21
97.1942516537
 31
0.0
  0
LINE
  5
132
330
1F
100
AcDbEntity
  8
SLD-0
  6
CONTINUOUS
 62
   179
100
AcDbLine
 10
23.550633
 20
97.0513006537
 30
0.0
 11
23.614114
 21
97.1247576537
 31
0.0
  0
LINE
  5
133
330
1F
100
AcDbEntity
  8
SLD-0
  6
CONTINUOUS
 62
   179
100
AcDbLine
 10
23.486957
 20
96.9738196537
 30
0.0
 11
23.550633
 21
97.0513006537
 31
0.0
  0
LINE
  5
134
330
1F
100
AcDbEntity
  8
SLD-0
  6
CONTINUOUS
 62
   179
100
AcDbLine
 10
23.423082
 20
96.8922506537
 30
0.0
 11
23.486957
 21
96.9738196537
 31
0.0
  0
LINE
  5
135
330
1F
100
AcDbEntity
  8
SLD-0
  6
CONTINUOUS
 62
   179
100
AcDbLine
 10
23.359007
 20
96.8065326537
 30
0.0
 11
23.423082
 21
96.8922506537
 31
0.0
  0
LINE
  5
136
330
1F
100
AcDbEntity
  8
SLD-0
  6
CONTINUOUS
 62
   179
100
AcDbLine
 10
23.294728
 20
96.7166016537
 30
0.0
 11
23.359007
 21
96.8065326537
 31
0.0
  0
LINE
  5
137
330
1F
100
AcDbEntity
  8
SLD-0
  6
CONTINUOUS
 62
   179
100
AcDbLine
 10
23.230242
 20
96.6223956537
 30
0.0
 11
23.294728
 21
96.7166016537
 31
0.0
  0
LINE
  5
138
330
1F
100
AcDbEntity
  8
SLD-0
  6
CONTINUOUS
 62
   179
100
AcDbLine
 10
15.578369
 20
96.6880576537
 30
0.0
 11
23.230242
 21
96.6223956537
 31
0.0
  0
LINE
  5
139
330
1F
100
AcDbEntity
  8
SLD-0
  6
CONTINUOUS
 62
   179
100
AcDbLine
 10
56.239007
 20
95.1573036537
 30
0.0
 11
14.677343
 21
95.1573036537
 31
0.0
  0
LINE
  5
13A
330
1F
100
AcDbEntity
  8
SLD-0
  6
CONTINUOUS
 62
   179
100
AcDbLine
 10
56.942081
 20
95.7877586537
 30
0.0
 11
56.239007
 21
95.1573036537
 31
0.0
  0
LINE
  5
13B
330
1F
100
AcDbEntity
  8
SLD-0
  6
CONTINUOUS
 62
   179
100
AcDbLine
 10
56.942081
 20
153.3888206537
 30
0.0
 11
56.942081
 21
95.7877586537
 31
0.0
  0
LINE
  5
13C
330
1F
100
AcDbEntity
  8
SLD-0
  6
CONTINUOUS
 62
   179
100
AcDbLine
 10
56.311117
 20
154.0913276537
 30
0.0
 11
56.942081
 21
153.3888206537
 31
0.0
  0
LINE
  5
13D
330
1F
100
AcDbEntity
  8
SLD-0
  6
CONTINUOUS
 62
   179
100
AcDbLine
 10
14.749453
 20
154.0913276537
 30
0.0
 11
56.311117
 21
154.0913276537
 31
0.0
  0
LINE
  5
13E
330
1F
100
AcDbEntity
  8
SLD-0
  6
CONTINUOUS
 62
   179
100
AcDbLine
 10
14.046379
 20
153.4608726537
 30
0.0
 11
14.749453
 21
154.0913276537
 31
0.0
  0
LINE
  5
13F
330
1F
100
AcDbEntity
  8
SLD-0
  6
CONTINUOUS
 62
   179
100
AcDbLine
 10
14.046379
 20
95.8598106537
 30
0.0
 11
14.046379
 21
153.4608726537
 31
0.0
  0
LINE
  5
140
330
1F
100
AcDbEntity
  8
SLD-0
  6
CONTINUOUS
 62
   179
100
AcDbLine
 10
14.677343
 20
95.1573036537
 30
0.0
 11
14.046379
 21
95.8598106537
 31
0.0
  0
LINE
  5
141
330
1F
100
AcDbEntity
  8
SLD-0
  6
CONTINUOUS
 62
   179
100
AcDbLine
 10
13.280385
 20
154.8567046537
 30
0.0
 11
13.280385
 21
94.3919276537
 31
0.0
  0
LINE
  5
142
330
1F
100
AcDbEntity
  8
SLD-0
  6
CONTINUOUS
 62
   179
100
AcDbLine
 10
57.708075
 20
154.8567046537
 30
0.0
 11
13.280385
 21
154.8567046537
 31
0.0
  0
LINE
  5
143
330
1F
100
AcDbEntity
  8
SLD-0
  6
CONTINUOUS
 62
   179
100
AcDbLine
 10
57.708075
 20
95.0752996537
 30
0.0
 11
57.708075
 21
154.8567046537
 31
0.0
  0
LINE
  5
144
330
1F
100
AcDbEntity
  8
SLD-0
  6
CONTINUOUS
 62
   179
100
AcDbLine
 10
57.024152
 20
94.3919276537
 30
0.0
 11
57.708075
 21
95.0752996537
 31
0.0
  0
LINE
  5
145
330
1F
100
AcDbEntity
  8
SLD-0
  6
CONTINUOUS
 62
   179
100
AcDbLine
 10
13.280385
 20
94.3919276537
 30
0.0
 11
57.024152
 21
94.3919276537
 31
0.0
  0
ENDSEC
  0
SECTION
  2
OBJECTS
  0
DICTIONARY
  5
C
330
0
100
AcDbDictionary
  3
ACAD_GROUP
350
D
  3
ACAD_MLINESTYLE
350
17
  0
DICTIONARY
  5
D
102
{ACAD_REACTORS
330
C
102
}
330
C
100
AcDbDictionary
  0
DICTIONARY
  5
17
102
{ACAD_REACTORS
330
C
102
}
330
C
100
AcDbDictionary
  3
STANDARD
350
18
  0
MLINESTYLE
  5
18
102
{ACAD_REACTORS
330
17
102
}
330
17
100
AcDbMlineStyle
  2
Standard
 70
     0
  3

 62
   256
 51
90.0
 52
90.0
 71
     2
 49
0.5
 62
   256
  6
BYLAYER
 49
-0.5
 62
   256
  6
BYLAYER
  0
ENDSEC
  0
EOF
